  0
SECTION
  2
HEADER
  9
$ACADVER
  1
AC1009
  9
$INSBASE
 10
72.12525930802381
 20
132.7425397792583
 30
0.0
  9
$EXTMIN
 10
72.12525930802381
 20
132.7425397792583
 30
0.0
  9
$EXTMAX
 10
310.2501670916117
 20
246.2820826507039
 30
0.0
  9
$LIMMIN
 10
0.0
 20
-0.0000000000000514
  9
$LIMMAX
 10
420.0
 20
296.9999999999999
  9
$ORTHOMODE
 70
     0
  9
$REGENMODE
 70
     0
  9
$FILLMODE
 70
     1
  9
$QTEXTMODE
 70
     0
  9
$MIRRTEXT
 70
     0
  9
$DRAGMODE
 70
     2
  9
$LTSCALE
 40
1.0
  9
$OSMODE
 70
     0
  9
$ATTMODE
 70
     1
  9
$TEXTSIZE
 40
2.0
  9
$TRACEWID
 40
0.1
  9
$TEXTSTYLE
  7
STANDARD
  9
$CLAYER
  8
4AN
  9
$CELTYPE
  6
BYLAYER
  9
$CECOLOR
 62
   256
  9
$DIMSCALE
 40
1.0
  9
$DIMASZ
 40
2.5
  9
$DIMEXO
 40
1.0
  9
$DIMDLI
 40
8.0
  9
$DIMRND
 40
0.0
  9
$DIMDLE
 40
0.0
  9
$DIMEXE
 40
2.0
  9
$DIMTP
 40
0.1
  9
$DIMTM
 40
0.1
  9
$DIMTXT
 40
3.5
  9
$DIMCEN
 40
2.0
  9
$DIMTSZ
 40
0.0
  9
$DIMTOL
 70
     0
  9
$DIMLIM
 70
     0
  9
$DIMTIH
 70
     0
  9
$DIMTOH
 70
     0
  9
$DIMSE1
 70
     0
  9
$DIMSE2
 70
     0
  9
$DIMTAD
 70
     1
  9
$DIMZIN
 70
     8
  9
$DIMBLK
  1

  9
$DIMASO
 70
     1
  9
$DIMSHO
 70
     1
  9
$DIMPOST
  1

  9
$DIMAPOST
  1

  9
$DIMALT
 70
     0
  9
$DIMALTD
 70
     2
  9
$DIMALTF
 40
25.39999999999999
  9
$DIMLFAC
 40
1.0
  9
$DIMTOFL
 70
     1
  9
$DIMTVP
 40
0.0
  9
$DIMTIX
 70
     0
  9
$DIMSOXD
 70
     0
  9
$DIMSAH
 70
     0
  9
$DIMBLK1
  1

  9
$DIMBLK2
  1

  9
$DIMSTYLE
  2
*UNNAMED
  9
$DIMCLRD
 70
   256
  9
$DIMCLRE
 70
   256
  9
$DIMCLRT
 70
     2
  9
$DIMTFAC
 40
0.71
  9
$DIMGAP
 40
1.5
  9
$LUNITS
 70
     2
  9
$LUPREC
 70
     3
  9
$SKETCHINC
 40
0.1
  9
$FILLETRAD
 40
2.5
  9
$AUNITS
 70
     0
  9
$AUPREC
 70
     1
  9
$MENU
  1

  9
$ELEVATION
 40
0.0
  9
$PELEVATION
 40
0.0
  9
$THICKNESS
 40
0.0
  9
$LIMCHECK
 70
     0
  9
$BLIPMODE
 70
     0
  9
$CHAMFERA
 40
2.5
  9
$CHAMFERB
 40
2.5
  9
$SKPOLY
 70
     1
  9
$TDCREATE
 40
2449364.639279977
  9
$TDUPDATE
 40
2449394.636925926
  9
$TDINDWG
 40
0.0089908565
  9
$TDUSRTIMER
 40
0.0089908565
  9
$USRTIMER
 70
     1
  9
$ANGBASE
 50
0.0
  9
$ANGDIR
 70
     0
  9
$PDMODE
 70
     0
  9
$PDSIZE
 40
0.0
  9
$PLINEWID
 40
0.0
  9
$COORDS
 70
     2
  9
$SPLFRAME
 70
     0
  9
$SPLINETYPE
 70
     6
  9
$SPLINESEGS
 70
     8
  9
$ATTDIA
 70
     1
  9
$ATTREQ
 70
     1
  9
$HANDLING
 70
     0
  9
$HANDSEED
  5
1610
  9
$SURFTAB1
 70
     6
  9
$SURFTAB2
 70
     6
  9
$SURFTYPE
 70
     6
  9
$SURFU
 70
     6
  9
$SURFV
 70
     6
  9
$UCSNAME
  2

  9
$UCSORG
 10
0.0
 20
0.0
 30
0.0
  9
$UCSXDIR
 10
1.0
 20
0.0
 30
0.0
  9
$UCSYDIR
 10
0.0
 20
1.0
 30
0.0
  9
$PUCSNAME
  2

  9
$PUCSORG
 10
0.0
 20
0.0
 30
0.0
  9
$PUCSXDIR
 10
1.0
 20
0.0
 30
0.0
  9
$PUCSYDIR
 10
0.0
 20
1.0
 30
0.0
  9
$USERI1
 70
     0
  9
$USERI2
 70
     3
  9
$USERI3
 70
    15
  9
$USERI4
 70
     0
  9
$USERI5
 70
     0
  9
$USERR1
 40
1.0
  9
$USERR2
 40
1.0
  9
$USERR3
 40
0.0
  9
$USERR4
 40
1.0
  9
$USERR5
 40
0.0
  9
$WORLDVIEW
 70
     5
  9
$SHADEDGE
 70
     3
  9
$SHADEDIF
 70
    70
  9
$TILEMODE
 70
     1
  9
$MAXACTVP
 70
     4
  9
$PINSBASE
 10
9.894451402545646E+73
 20
0.0
 30
0.0
  9
$PLIMCHECK
 70
     0
  9
$PEXTMIN
 10
1.000000000000000E+20
 20
1.000000000000000E+20
 30
1.000000000000000E+20
  9
$PEXTMAX
 10
-1.000000000000000E+20
 20
-1.000000000000000E+20
 30
-1.000000000000000E+20
  9
$PLIMMIN
 10
0.0
 20
0.0
  9
$PLIMMAX
 10
12.0
 20
12.0
  9
$UNITMODE
 70
     0
  9
$VISRETAIN
 70
     0
  9
$PLINEGEN
 70
     0
  9
$PSLTSCALE
 70
     0
  9
$TREEDEPTH
 70
  3020
  9
$DWGCODEPAGE
  3
undefined
  0
ENDSEC
  0
SECTION
  2
TABLES
  0
TABLE
  2
VPORT
 70
     2
  0
VPORT
  2
*ACTIVE
 70
     0
 10
0.0
 20
0.0
 11
1.0
 21
1.0
 12
191.1877131998178
 22
226.0753955842663
 13
0.0
 23
0.0
 14
1.0
 24
1.0
 15
10.0
 25
10.0
 16
0.0
 26
0.0
 36
1.0
 17
0.0
 27
0.0
 37
0.0
 40
186.6657116100159
 41
1.275675675675675
 42
50.0
 43
0.0
 44
0.0
 50
0.0
 51
0.0
 71
     0
 72
   100
 73
     1
 74
     0
 75
     0
 76
     0
 77
     0
 78
     0
  0
ENDTAB
  0
TABLE
  2
LTYPE
 70
     2
  0
LTYPE
  2
CONTINUOUS
 70
    64
  3
Solid line
 72
    65
 73
     0
 40
0.0
  0
LTYPE
  2
GEN
 70
    64
  3
----------------------
 72
    65
 73
     2
 40
10000000000.0
 49
0.0
 49
10000000000.0
  0
ENDTAB
  0
TABLE
  2
LAYER
 70
     3
  0
LAYER
  2
0
 70
     0
 62
     7
  6
GEN
  0
LAYER
  2
ITEM_50
 70
    64
 62
     7
  6
CONTINUOUS
  0
LAYER
  2
4AN
 70
     0
 62
     3
  6
CONTINUOUS
  0
ENDTAB
  0
TABLE
  2
STYLE
 70
     1
  0
STYLE
  2
STANDARD
 70
     0
 40
0.0
 41
1.0
 50
0.0
 71
     0
 42
2.0
  3
GENISO
  4

  0
ENDTAB
  0
TABLE
  2
VIEW
 70
     0
  0
ENDTAB
  0
TABLE
  2
UCS
 70
     0
  0
ENDTAB
  0
TABLE
  2
APPID
 70
     1
  0
APPID
  2
ACAD
 70
    64
  0
ENDTAB
  0
TABLE
  2
DIMSTYLE
 70
     0
  0
ENDTAB
  0
ENDSEC
  0
SECTION
  2
BLOCKS
  0
ENDSEC
  0
SECTION
  2
ENTITIES
  0
LINE
  8
ITEM_50
 10
285.5501670916117
 20
241.2820826507039
 30
0.0
 11
285.5501670916117
 21
240.282082650707
 31
0.0
  0
LINE
  8
ITEM_50
 10
279.0501670916117
 20
241.2820826507039
 30
0.0
 11
285.5501670916117
 21
241.2820826507039
 31
0.0
  0
LINE
  8
ITEM_50
 10
279.7501670916117
 20
240.282082650707
 30
0.0
 11
307.7501670916118
 21
240.282082650707
 31
0.0
  0
LINE
  8
ITEM_50
 10
279.7501670916117
 20
218.5820826507039
 30
0.0
 11
279.7501670916117
 21
240.282082650707
 31
0.0
  0
LINE
  8
ITEM_50
 10
307.7501670916118
 20
218.5820826507039
 30
0.0
 11
307.7501670916118
 21
240.282082650707
 31
0.0
  0
LINE
  8
ITEM_50
 10
280.9501670916117
 20
235.782082650707
 30
0.0
 11
285.9501670916117
 21
235.782082650707
 31
0.0
  0
LINE
  8
ITEM_50
 10
280.9501670916117
 20
219.3820826507039
 30
0.0
 11
280.9501670916117
 21
228.182082650707
 31
0.0
  0
LINE
  8
ITEM_50
 10
306.5501670916117
 20
219.3820826507038
 30
0.0
 11
306.5501670916117
 21
228.182082650707
 31
0.0
  0
LINE
  8
ITEM_50
 10
285.9501670916117
 20
235.782082650707
 30
0.0
 11
285.9501670916117
 21
240.282082650707
 31
0.0
  0
LINE
  8
ITEM_50
 10
301.5501670916117
 20
235.782082650707
 30
0.0
 11
301.5501670916117
 21
240.282082650707
 31
0.0
  0
LINE
  8
ITEM_50
 10
287.1501670916118
 20
235.782082650707
 30
0.0
 11
287.1501670916118
 21
240.282082650707
 31
0.0
  0
LINE
  8
ITEM_50
 10
300.3501670916118
 20
235.782082650707
 30
0.0
 11
300.3501670916118
 21
240.282082650707
 31
0.0
  0
LINE
  8
ITEM_50
 10
294.3501670916118
 20
235.782082650707
 30
0.0
 11
294.3501670916118
 21
240.282082650707
 31
0.0
  0
LINE
  8
ITEM_50
 10
293.1501670916118
 20
235.782082650707
 30
0.0
 11
293.1501670916118
 21
240.282082650707
 31
0.0
  0
LINE
  8
ITEM_50
 10
280.9501670916117
 20
234.982082650707
 30
0.0
 11
285.1501670916118
 21
234.982082650707
 31
0.0
  0
LINE
  8
ITEM_50
 10
285.9501670916117
 20
234.982082650707
 30
0.0
 11
285.9501670916117
 21
229.3820826507072
 31
0.0
  0
LINE
  8
ITEM_50
 10
285.1501670916118
 20
234.982082650707
 30
0.0
 11
285.1501670916118
 21
228.982082650707
 31
0.0
  0
LINE
  8
ITEM_50
 10
287.1501670916118
 20
234.982082650707
 30
0.0
 11
287.1501670916118
 21
229.3820826507072
 31
0.0
  0
LINE
  8
ITEM_50
 10
287.9501670916117
 20
234.982082650707
 30
0.0
 11
287.9501670916117
 21
228.9820826507069
 31
0.0
  0
LINE
  8
ITEM_50
 10
295.1501670916118
 20
234.982082650707
 30
0.0
 11
295.1501670916118
 21
228.9820826507069
 31
0.0
  0
LINE
  8
ITEM_50
 10
294.3501670916118
 20
234.982082650707
 30
0.0
 11
294.3501670916118
 21
229.3820826507069
 31
0.0
  0
LINE
  8
ITEM_50
 10
292.3501670916118
 20
234.982082650707
 30
0.0
 11
292.3501670916118
 21
228.9820826507069
 31
0.0
  0
LINE
  8
ITEM_50
 10
293.1501670916118
 20
234.982082650707
 30
0.0
 11
293.1501670916118
 21
229.3820826507069
 31
0.0
  0
LINE
  8
ITEM_50
 10
300.3501670916118
 20
234.982082650707
 30
0.0
 11
300.3501670916118
 21
229.3820826507068
 31
0.0
  0
LINE
  8
ITEM_50
 10
299.5501670916117
 20
234.982082650707
 30
0.0
 11
299.5501670916117
 21
228.9820826507069
 31
0.0
  0
LINE
  8
ITEM_50
 10
301.5501670916117
 20
234.982082650707
 30
0.0
 11
301.5501670916117
 21
229.3820826507068
 31
0.0
  0
LINE
  8
ITEM_50
 10
302.3501670916118
 20
234.982082650707
 30
0.0
 11
302.3501670916118
 21
228.9820826507069
 31
0.0
  0
LINE
  8
ITEM_50
 10
280.9501670916117
 20
235.782082650707
 30
0.0
 11
280.9501670916117
 21
240.282082650707
 31
0.0
  0
LINE
  8
ITEM_50
 10
287.1501670916118
 20
235.782082650707
 30
0.0
 11
293.1501670916118
 21
235.782082650707
 31
0.0
  0
LINE
  8
ITEM_50
 10
285.9501670916117
 20
234.982082650707
 30
0.0
 11
287.1501670916118
 21
234.9820826507069
 31
0.0
  0
LINE
  8
ITEM_50
 10
287.9501670916117
 20
234.9820826507069
 30
0.0
 11
292.3501670916118
 21
234.9820826507069
 31
0.0
  0
LINE
  8
ITEM_50
 10
306.5501670916117
 20
235.782082650707
 30
0.0
 11
306.5501670916117
 21
240.282082650707
 31
0.0
  0
LINE
  8
ITEM_50
 10
301.5501670916117
 20
235.782082650707
 30
0.0
 11
306.5501670916117
 21
235.782082650707
 31
0.0
  0
LINE
  8
ITEM_50
 10
300.3501670916118
 20
234.9820826507069
 30
0.0
 11
301.5501670916117
 21
234.9820826507069
 31
0.0
  0
LINE
  8
ITEM_50
 10
302.3501670916118
 20
234.982082650707
 30
0.0
 11
306.5501670916117
 21
234.982082650707
 31
0.0
  0
LINE
  8
ITEM_50
 10
294.3501670916118
 20
235.782082650707
 30
0.0
 11
300.3501670916118
 21
235.782082650707
 31
0.0
  0
LINE
  8
ITEM_50
 10
293.1501670916118
 20
234.9820826507069
 30
0.0
 11
294.3501670916118
 21
234.9820826507069
 31
0.0
  0
LINE
  8
ITEM_50
 10
295.1501670916118
 20
234.9820826507069
 30
0.0
 11
299.5501670916117
 21
234.9820826507069
 31
0.0
  0
LINE
  8
ITEM_50
 10
280.9501670916117
 20
228.982082650707
 30
0.0
 11
281.9501670916117
 21
228.982082650707
 31
0.0
  0
LINE
  8
ITEM_50
 10
287.9501670916117
 20
228.9820826507069
 30
0.0
 11
288.9501670916117
 21
228.9820826507069
 31
0.0
  0
LINE
  8
ITEM_50
 10
295.1501670916118
 20
228.9820826507069
 30
0.0
 11
296.1501670916118
 21
228.9820826507069
 31
0.0
  0
LINE
  8
ITEM_50
 10
302.3501670916118
 20
228.982082650707
 30
0.0
 11
303.3501670916118
 21
228.982082650707
 31
0.0
  0
LINE
  8
ITEM_50
 10
280.9501670916117
 20
228.182082650707
 30
0.0
 11
281.9501670916117
 21
228.182082650707
 31
0.0
  0
LINE
  8
ITEM_50
 10
287.9501670916117
 20
228.1820826507069
 30
0.0
 11
288.9501670916117
 21
228.1820826507069
 31
0.0
  0
LINE
  8
ITEM_50
 10
295.1501670916118
 20
228.1820826507069
 30
0.0
 11
296.1501670916118
 21
228.1820826507069
 31
0.0
  0
LINE
  8
ITEM_50
 10
302.3501670916118
 20
228.182082650707
 30
0.0
 11
303.3501670916118
 21
228.182082650707
 31
0.0
  0
LINE
  8
ITEM_50
 10
280.9501670916117
 20
219.3820826507039
 30
0.0
 11
281.9501670916086
 21
219.3820826507038
 31
0.0
  0
LINE
  8
ITEM_50
 10
281.9501670916117
 20
228.182082650707
 30
0.0
 11
281.9501670916117
 21
228.982082650707
 31
0.0
  0
LINE
  8
ITEM_50
 10
284.1501670916118
 20
228.982082650707
 30
0.0
 11
284.1501670916118
 21
228.1820826507069
 31
0.0
  0
LINE
  8
ITEM_50
 10
284.1501670916118
 20
228.182082650707
 30
0.0
 11
285.1501670916118
 21
228.182082650707
 31
0.0
  0
LINE
  8
ITEM_50
 10
284.1501670916118
 20
228.982082650707
 30
0.0
 11
285.1501670916118
 21
228.982082650707
 31
0.0
  0
LINE
  8
ITEM_50
 10
281.9501670916086
 20
219.3820826507038
 30
0.0
 11
281.9501670916086
 21
218.5820826507039
 31
0.0
  0
LINE
  8
ITEM_50
 10
284.1501670916086
 20
219.3820826507038
 30
0.0
 11
284.1501670916086
 21
218.5820826507039
 31
0.0
  0
LINE
  8
ITEM_50
 10
284.1501670916086
 20
219.3820826507038
 30
0.0
 11
285.1501670916118
 21
219.3820826507038
 31
0.0
  0
LINE
  8
ITEM_50
 10
285.9501670916117
 20
219.3820826507038
 30
0.0
 11
287.1501670916118
 21
219.3820826507038
 31
0.0
  0
LINE
  8
ITEM_50
 10
288.9501670916117
 20
228.9820826507069
 30
0.0
 11
288.9501670916117
 21
228.1820826507069
 31
0.0
  0
LINE
  8
ITEM_50
 10
291.3501670916118
 20
228.9820826507069
 30
0.0
 11
291.3501670916118
 21
228.1820826507069
 31
0.0
  0
LINE
  8
ITEM_50
 10
296.1501670916118
 20
228.9820826507069
 30
0.0
 11
296.1501670916118
 21
228.182082650707
 31
0.0
  0
LINE
  8
ITEM_50
 10
298.5501670916117
 20
228.9820826507069
 30
0.0
 11
298.5501670916117
 21
228.182082650707
 31
0.0
  0
LINE
  8
ITEM_50
 10
303.3501670916118
 20
228.982082650707
 30
0.0
 11
303.3501670916118
 21
228.182082650707
 31
0.0
  0
LINE
  8
ITEM_50
 10
305.5501670916117
 20
228.182082650707
 30
0.0
 11
305.5501670916117
 21
228.982082650707
 31
0.0
  0
LINE
  8
ITEM_50
 10
280.9501670916117
 20
228.982082650707
 30
0.0
 11
280.9501670916117
 21
234.9820826507069
 31
0.0
  0
LINE
  8
ITEM_50
 10
285.1501670916118
 20
228.182082650707
 30
0.0
 11
285.1501670916118
 21
219.3820826507038
 31
0.0
  0
LINE
  8
ITEM_50
 10
291.3501670916118
 20
228.9820826507069
 30
0.0
 11
292.3501670916118
 21
228.9820826507069
 31
0.0
  0
LINE
  8
ITEM_50
 10
291.3501670916118
 20
228.1820826507069
 30
0.0
 11
292.3501670916118
 21
228.1820826507069
 31
0.0
  0
LINE
  8
ITEM_50
 10
287.9501670916117
 20
228.1820826507069
 30
0.0
 11
287.9501670916117
 21
219.3820826507038
 31
0.0
  0
LINE
  8
ITEM_50
 10
292.3501670916118
 20
228.1820826507069
 30
0.0
 11
292.3501670916118
 21
219.3820826507039
 31
0.0
  0
LINE
  8
ITEM_50
 10
298.5501670916117
 20
228.1820826507069
 30
0.0
 11
299.5501670916117
 21
228.1820826507069
 31
0.0
  0
LINE
  8
ITEM_50
 10
298.5501670916117
 20
228.9820826507069
 30
0.0
 11
299.5501670916117
 21
228.9820826507069
 31
0.0
  0
LINE
  8
ITEM_50
 10
295.1501670916118
 20
228.1820826507069
 30
0.0
 11
295.1501670916118
 21
219.3820826507039
 31
0.0
  0
LINE
  8
ITEM_50
 10
299.5501670916117
 20
228.182082650707
 30
0.0
 11
299.5501670916117
 21
219.3820826507038
 31
0.0
  0
LINE
  8
ITEM_50
 10
305.5501670916117
 20
228.982082650707
 30
0.0
 11
306.5501670916117
 21
228.982082650707
 31
0.0
  0
LINE
  8
ITEM_50
 10
305.5501670916117
 20
228.182082650707
 30
0.0
 11
306.5501670916117
 21
228.182082650707
 31
0.0
  0
LINE
  8
ITEM_50
 10
302.3501670916118
 20
228.1820826507069
 30
0.0
 11
302.3501670916118
 21
219.3820826507039
 31
0.0
  0
LINE
  8
ITEM_50
 10
306.5501670916117
 20
228.982082650707
 30
0.0
 11
306.5501670916117
 21
234.982082650707
 31
0.0
  0
LINE
  8
ITEM_50
 10
288.9501670916086
 20
219.3820826507038
 30
0.0
 11
288.9501670916086
 21
218.5820826507039
 31
0.0
  0
LINE
  8
ITEM_50
 10
291.3501670916118
 20
219.3820826507038
 30
0.0
 11
292.3501670916118
 21
219.3820826507038
 31
0.0
  0
LINE
  8
ITEM_50
 10
287.9501670916117
 20
219.3820826507038
 30
0.0
 11
288.9501670916086
 21
219.3820826507038
 31
0.0
  0
LINE
  8
ITEM_50
 10
291.3501670916118
 20
219.3820826507038
 30
0.0
 11
291.3501670916118
 21
218.5820826507038
 31
0.0
  0
LINE
  8
ITEM_50
 10
296.1501670916118
 20
219.3820826507038
 30
0.0
 11
296.1501670916118
 21
218.5820826507039
 31
0.0
  0
LINE
  8
ITEM_50
 10
298.5501670916117
 20
219.3820826507038
 30
0.0
 11
298.5501670916117
 21
218.5820826507039
 31
0.0
  0
LINE
  8
ITEM_50
 10
303.3501670916118
 20
219.3820826507039
 30
0.0
 11
303.3501670916118
 21
218.5820826507039
 31
0.0
  0
LINE
  8
ITEM_50
 10
305.5501670916117
 20
218.5820826507039
 30
0.0
 11
305.5501670916117
 21
219.3820826507039
 31
0.0
  0
LINE
  8
ITEM_50
 10
298.5501670916117
 20
219.3820826507038
 30
0.0
 11
299.5501670916117
 21
219.3820826507039
 31
0.0
  0
LINE
  8
ITEM_50
 10
305.5501670916117
 20
219.3820826507038
 30
0.0
 11
306.5501670916117
 21
219.3820826507039
 31
0.0
  0
LINE
  8
ITEM_50
 10
295.1501670916118
 20
219.3820826507038
 30
0.0
 11
296.1501670916118
 21
219.3820826507038
 31
0.0
  0
LINE
  8
ITEM_50
 10
293.1501670916118
 20
219.3820826507038
 30
0.0
 11
294.3501670916118
 21
219.3820826507038
 31
0.0
  0
LINE
  8
ITEM_50
 10
300.3501670916118
 20
219.3820826507038
 30
0.0
 11
301.5501670916117
 21
219.3820826507038
 31
0.0
  0
LINE
  8
ITEM_50
 10
302.3501670916118
 20
219.3820826507038
 30
0.0
 11
303.3501670916118
 21
219.3820826507038
 31
0.0
  0
ARC
  8
ITEM_50
 10
283.0501670916117
 20
231.782082650707
 30
0.0
 40
1.5
 50
137.166571933932
 51
42.83342806606797
  0
ARC
  8
ITEM_50
 10
290.1501670916118
 20
231.782082650707
 30
0.0
 40
1.5
 50
137.166571933932
 51
42.83342806606797
  0
ARC
  8
ITEM_50
 10
297.3501670916118
 20
231.782082650707
 30
0.0
 40
1.5
 50
137.1665719339324
 51
42.8334280660676
  0
ARC
  8
ITEM_50
 10
304.4501670916117
 20
231.782082650707
 30
0.0
 40
1.5
 50
137.1665719339308
 51
42.8334280660676
  0
LINE
  8
ITEM_50
 10
281.9501670916117
 20
232.8018865534255
 30
0.0
 11
281.9501670916117
 21
234.9820826507069
 31
0.0
  0
LINE
  8
ITEM_50
 10
284.1501670916117
 20
232.8018865534255
 30
0.0
 11
284.1501670916117
 21
234.9820826507069
 31
0.0
  0
LINE
  8
ITEM_50
 10
289.0501670916117
 20
234.982082650707
 30
0.0
 11
289.0501670916117
 21
232.8018865534256
 31
0.0
  0
LINE
  8
ITEM_50
 10
291.2501670916117
 20
234.982082650707
 30
0.0
 11
291.2501670916117
 21
232.8018865534256
 31
0.0
  0
LINE
  8
ITEM_50
 10
296.2501670916117
 20
234.982082650707
 30
0.0
 11
296.2501670916118
 21
232.8018865534255
 31
0.0
  0
LINE
  8
ITEM_50
 10
298.4501670916117
 20
234.982082650707
 30
0.0
 11
298.4501670916117
 21
232.8018865534255
 31
0.0
  0
LINE
  8
ITEM_50
 10
303.3501670916118
 20
232.8018865534256
 30
0.0
 11
303.3501670916118
 21
234.9820826507069
 31
0.0
  0
LINE
  8
ITEM_50
 10
305.5501670916117
 20
232.8018865534255
 30
0.0
 11
305.5501670916117
 21
234.9820826507069
 31
0.0
  0
LINE
  8
ITEM_50
 10
281.9501670916117
 20
232.8018865534255
 30
0.0
 11
284.1501670916117
 21
232.8018865534255
 31
0.0
  0
LINE
  8
ITEM_50
 10
289.0501670916117
 20
232.8018865534255
 30
0.0
 11
291.2501670916117
 21
232.8018865534255
 31
0.0
  0
LINE
  8
ITEM_50
 10
296.2501670916117
 20
232.8018865534255
 30
0.0
 11
298.4501670916117
 21
232.8018865534255
 31
0.0
  0
LINE
  8
ITEM_50
 10
303.3501670916118
 20
232.8018865534256
 30
0.0
 11
305.5501670916117
 21
232.8018865534255
 31
0.0
  0
CIRCLE
  8
ITEM_50
 10
286.5501670916117
 20
228.5820826507072
 30
0.0
 40
1.0
  0
CIRCLE
  8
ITEM_50
 10
293.7501670916117
 20
228.582082650707
 30
0.0
 40
1.0
  0
CIRCLE
  8
ITEM_50
 10
300.9501670916117
 20
228.5820826507068
 30
0.0
 40
1.0
  0
LINE
  8
ITEM_50
 10
300.3501670916118
 20
227.7820826507067
 30
0.0
 11
300.3501670916118
 21
219.3820826507038
 31
0.0
  0
LINE
  8
ITEM_50
 10
301.5501670916117
 20
227.7820826507067
 30
0.0
 11
301.5501670916117
 21
219.3820826507038
 31
0.0
  0
LINE
  8
ITEM_50
 10
293.1501670916118
 20
227.782082650707
 30
0.0
 11
293.1501670916118
 21
219.3820826507038
 31
0.0
  0
LINE
  8
ITEM_50
 10
294.3501670916118
 20
227.782082650707
 30
0.0
 11
294.3501670916118
 21
219.3820826507038
 31
0.0
  0
LINE
  8
ITEM_50
 10
285.9501670916117
 20
227.7820826507072
 30
0.0
 11
285.9501670916117
 21
219.3820826507038
 31
0.0
  0
LINE
  8
ITEM_50
 10
287.1501670916118
 20
227.7820826507072
 30
0.0
 11
287.1501670916118
 21
219.3820826507038
 31
0.0
  0
LINE
  8
ITEM_50
 10
282.5501670916086
 20
228.982082650707
 30
0.0
 11
282.5501670916086
 21
218.5820826507038
 31
0.0
  0
LINE
  8
ITEM_50
 10
283.5501670916086
 20
228.982082650707
 30
0.0
 11
283.5501670916086
 21
218.5820826507038
 31
0.0
  0
LINE
  8
ITEM_50
 10
289.6501670916086
 20
228.9820826507069
 30
0.0
 11
289.6501670916086
 21
218.5820826507038
 31
0.0
  0
LINE
  8
ITEM_50
 10
290.6501670916086
 20
228.9820826507069
 30
0.0
 11
290.6501670916086
 21
218.5820826507038
 31
0.0
  0
LINE
  8
ITEM_50
 10
296.8501670916086
 20
228.9820826507069
 30
0.0
 11
296.8501670916086
 21
218.5820826507038
 31
0.0
  0
LINE
  8
ITEM_50
 10
297.8501670916086
 20
228.9820826507069
 30
0.0
 11
297.8501670916086
 21
218.5820826507038
 31
0.0
  0
LINE
  8
ITEM_50
 10
303.9501670916087
 20
228.982082650707
 30
0.0
 11
303.9501670916086
 21
218.5820826507038
 31
0.0
  0
LINE
  8
ITEM_50
 10
304.9501670916086
 20
228.982082650707
 30
0.0
 11
304.9501670916086
 21
218.5820826507038
 31
0.0
  0
LINE
  8
ITEM_50
 10
281.9501670916117
 20
228.982082650707
 30
0.0
 11
284.1501670916118
 21
228.982082650707
 31
0.0
  0
LINE
  8
ITEM_50
 10
288.9501670916117
 20
228.9820826507069
 30
0.0
 11
291.3501670916118
 21
228.9820826507069
 31
0.0
  0
LINE
  8
ITEM_50
 10
296.1501670916118
 20
228.9820826507069
 30
0.0
 11
298.5501670916117
 21
228.9820826507069
 31
0.0
  0
LINE
  8
ITEM_50
 10
303.3501670916118
 20
228.982082650707
 30
0.0
 11
305.5501670916117
 21
228.982082650707
 31
0.0
  0
ARC
  8
ITEM_50
 10
146.6417405988702
 20
153.2425397792583
 30
0.0
 40
5.0
 50
57.31636115374092
 51
90.0
  0
LINE
  8
ITEM_50
 10
159.3417405988702
 20
157.4425397792584
 30
0.0
 11
157.0417405988733
 21
157.4425397792584
 31
0.0
  0
LINE
  8
ITEM_50
 10
157.0417405988733
 20
163.9425397792584
 30
0.0
 11
157.0417405988733
 21
157.4425397792585
 31
0.0
  0
LINE
  8
ITEM_50
 10
149.3417405988703
 20
163.2425397792584
 30
0.0
 11
157.0417405988733
 21
163.2425397792584
 31
0.0
  0
LINE
  8
ITEM_50
 10
149.3417405988701
 20
135.2425397792584
 30
0.0
 11
157.04174059887
 21
135.2425397792584
 31
0.0
  0
LINE
  8
ITEM_50
 10
149.3417405988703
 20
163.2425397792584
 30
0.0
 11
149.3417405988701
 21
135.2425397792585
 31
0.0
  0
LINE
  8
ITEM_50
 10
149.3417405988701
 20
136.4425397792585
 30
0.0
 11
153.0417405988702
 21
136.4425397792584
 31
0.0
  0
LINE
  8
ITEM_50
 10
149.3417405988701
 20
141.4425397792585
 30
0.0
 11
153.0417405988702
 21
141.4425397792585
 31
0.0
  0
LINE
  8
ITEM_50
 10
149.3417405988702
 20
142.6425397792585
 30
0.0
 11
153.0417405988702
 21
142.6425397792584
 31
0.0
  0
LINE
  8
ITEM_50
 10
149.3417405988702
 20
148.6425397792584
 30
0.0
 11
153.0417405988702
 21
148.6425397792584
 31
0.0
  0
LINE
  8
ITEM_50
 10
158.1417405988702
 20
157.4425397792584
 30
0.0
 11
158.1417405988702
 21
146.5425397792584
 31
0.0
  0
ARC
  8
ITEM_50
 10
153.6417405988702
 20
145.6425397792584
 30
0.0
 40
2.5
 50
103.8865403626286
 51
256.1134596373709
  0
ARC
  8
ITEM_50
 10
153.6417405988702
 20
138.9425397792584
 30
0.0
 40
2.5
 50
103.8865403626279
 51
256.1134596373701
  0
LINE
  8
ITEM_50
 10
154.2417405988702
 20
148.6425397792584
 30
0.0
 11
154.2417405988702
 21
148.0694719991608
 31
0.0
  0
LINE
  8
ITEM_50
 10
153.0417405988702
 20
148.6425397792585
 30
0.0
 11
153.0417405988702
 21
148.0694719991608
 31
0.0
  0
LINE
  8
ITEM_50
 10
154.2417405988702
 20
143.2156075593561
 30
0.0
 11
154.2417405988702
 21
142.6425397792585
 31
0.0
  0
LINE
  8
ITEM_50
 10
153.0417405988702
 20
143.2156075593561
 30
0.0
 11
153.0417405988702
 21
142.6425397792584
 31
0.0
  0
LINE
  8
ITEM_50
 10
154.2417405988701
 20
136.5156075593561
 30
0.0
 11
154.2417405988702
 21
136.4425397792584
 31
0.0
  0
LINE
  8
ITEM_50
 10
153.0417405988702
 20
136.5156075593561
 30
0.0
 11
153.0417405988701
 21
136.4425397792584
 31
0.0
  0
LINE
  8
ITEM_50
 10
154.2417405988702
 20
136.4425397792584
 30
0.0
 11
157.04174059887
 21
136.4425397792584
 31
0.0
  0
LINE
  8
ITEM_50
 10
153.0417405988702
 20
141.4425397792585
 30
0.0
 11
153.0417405988702
 21
141.3694719991608
 31
0.0
  0
LINE
  8
ITEM_50
 10
154.2417405988701
 20
141.4425397792585
 30
0.0
 11
154.2417405988701
 21
141.3694719991608
 31
0.0
  0
LINE
  8
ITEM_50
 10
154.2417405988701
 20
141.4425397792585
 30
0.0
 11
157.04174059887
 21
141.4425397792584
 31
0.0
  0
ARC
  8
ITEM_50
 10
153.6417405988702
 20
138.9425397792584
 30
0.0
 40
2.5
 50
283.8865403626293
 51
76.11345963737092
  0
LINE
  8
ITEM_50
 10
154.2417405988702
 20
142.6425397792584
 30
0.0
 11
157.0417405988701
 21
142.6425397792584
 31
0.0
  0
LINE
  8
ITEM_50
 10
154.2417405988701
 20
148.6425397792584
 30
0.0
 11
158.1417405988702
 21
148.6425397792584
 31
0.0
  0
ARC
  8
ITEM_50
 10
153.6417405988702
 20
145.6425397792584
 30
0.0
 40
2.5
 50
283.8865403626293
 51
76.11345963737156
  0
LINE
  8
ITEM_50
 10
149.3417405988702
 20
149.8425397792585
 30
0.0
 11
153.0417405988702
 21
149.8425397792585
 31
0.0
  0
LINE
  8
ITEM_50
 10
154.2417405988702
 20
149.8425397792585
 30
0.0
 11
158.1417405988702
 21
149.8425397792584
 31
0.0
  0
LINE
  8
ITEM_50
 10
154.2417405988702
 20
149.8425397792585
 30
0.0
 11
154.2417405988702
 21
150.4156075593561
 31
0.0
  0
ARC
  8
ITEM_50
 10
153.6417405988702
 20
152.8425397792585
 30
0.0
 40
2.5
 50
283.8865403626278
 51
76.11345963737021
  0
LINE
  8
ITEM_50
 10
154.2417405988702
 20
155.8425397792585
 30
0.0
 11
158.1417405988702
 21
155.8425397792584
 31
0.0
  0
ARC
  8
ITEM_50
 10
153.6417405988702
 20
159.5425397792585
 30
0.0
 40
2.5
 50
283.8865403626285
 51
76.11345963737021
  0
LINE
  8
ITEM_50
 10
154.2417405988702
 20
157.0425397792585
 30
0.0
 11
158.1417405988702
 21
157.0425397792584
 31
0.0
  0
LINE
  8
ITEM_50
 10
154.2417405988702
 20
157.0425397792585
 30
0.0
 11
154.2417405988702
 21
157.1156075593561
 31
0.0
  0
LINE
  8
ITEM_50
 10
153.0417405988703
 20
157.0425397792585
 30
0.0
 11
153.0417405988702
 21
157.1156075593561
 31
0.0
  0
LINE
  8
ITEM_50
 10
154.2417405988703
 20
162.0425397792585
 30
0.0
 11
157.0417405988701
 21
162.0425397792584
 31
0.0
  0
LINE
  8
ITEM_50
 10
153.0417405988702
 20
161.9694719991608
 30
0.0
 11
153.0417405988702
 21
162.0425397792585
 31
0.0
  0
LINE
  8
ITEM_50
 10
154.2417405988702
 20
161.9694719991608
 30
0.0
 11
154.2417405988703
 21
162.0425397792585
 31
0.0
  0
LINE
  8
ITEM_50
 10
153.0417405988702
 20
155.2694719991608
 30
0.0
 11
153.0417405988702
 21
155.8425397792585
 31
0.0
  0
LINE
  8
ITEM_50
 10
154.2417405988702
 20
155.2694719991608
 30
0.0
 11
154.2417405988702
 21
155.8425397792584
 31
0.0
  0
LINE
  8
ITEM_50
 10
153.0417405988702
 20
149.8425397792584
 30
0.0
 11
153.0417405988702
 21
150.4156075593561
 31
0.0
  0
ARC
  8
ITEM_50
 10
153.6417405988702
 20
159.5425397792585
 30
0.0
 40
2.5
 50
103.8865403626293
 51
256.1134596373715
  0
ARC
  8
ITEM_50
 10
153.6417405988702
 20
152.8425397792585
 30
0.0
 40
2.5
 50
103.8865403626286
 51
256.1134596373709
  0
LINE
  8
ITEM_50
 10
149.3417405988702
 20
155.8425397792584
 30
0.0
 11
153.0417405988703
 21
155.8425397792585
 31
0.0
  0
LINE
  8
ITEM_50
 10
149.3417405988702
 20
157.0425397792585
 30
0.0
 11
153.0417405988703
 21
157.0425397792585
 31
0.0
  0
LINE
  8
ITEM_50
 10
149.3417405988702
 20
162.0425397792585
 30
0.0
 11
153.0417405988702
 21
162.0425397792585
 31
0.0
  0
CIRCLE
  8
ITEM_50
 10
153.6417405988702
 20
159.5425397792585
 30
0.0
 40
2.0
  0
CIRCLE
  8
ITEM_50
 10
153.6417405988702
 20
152.8425397792585
 30
0.0
 40
2.0
  0
CIRCLE
  8
ITEM_50
 10
153.6417405988702
 20
145.6425397792584
 30
0.0
 40
2.0
  0
CIRCLE
  8
ITEM_50
 10
153.6417405988702
 20
138.9425397792584
 30
0.0
 40
2.0
  0
CIRCLE
  8
ITEM_50
 10
153.6417405988702
 20
159.5425397792585
 30
0.0
 40
1.75
  0
LINE
  8
ITEM_50
 10
151.9380680951302
 20
159.1425397792584
 30
0.0
 11
155.3454131026103
 21
159.1425397792584
 31
0.0
  0
LINE
  8
ITEM_50
 10
151.9380680951302
 20
159.9425397792585
 30
0.0
 11
155.3454131026103
 21
159.9425397792585
 31
0.0
  0
CIRCLE
  8
ITEM_50
 10
153.6417405988702
 20
152.8425397792585
 30
0.0
 40
1.75
  0
LINE
  8
ITEM_50
 10
152.7199049310291
 20
154.3300608720487
 30
0.0
 11
155.1292616916605
 21
151.9207041114174
 31
0.0
  0
LINE
  8
ITEM_50
 10
152.1542195060799
 20
153.7643754470995
 30
0.0
 11
154.5635762667112
 21
151.3550186864681
 31
0.0
  0
CIRCLE
  8
ITEM_50
 10
153.6417405988702
 20
145.6425397792584
 30
0.0
 40
1.75
  0
LINE
  8
ITEM_50
 10
152.7199049310291
 20
144.1550186864682
 30
0.0
 11
155.1292616916605
 21
146.5643754470995
 31
0.0
  0
LINE
  8
ITEM_50
 10
152.1542195060799
 20
144.7207041114174
 30
0.0
 11
154.5635762667112
 21
147.1300608720488
 31
0.0
  0
LINE
  8
ITEM_50
 10
152.7199049310291
 20
140.4300608720487
 30
0.0
 11
155.1292616916605
 21
138.0207041114174
 31
0.0
  0
ARC
  8
ITEM_50
 10
153.6417405988702
 20
138.9425397792584
 30
0.0
 40
1.75
 50
205.4737256687005
 51
205.0620635677487
  0
LINE
  8
ITEM_50
 10
152.1542195060798
 20
139.8643754470995
 30
0.0
 11
154.5635762667112
 21
137.4550186864681
 31
0.0
  0
POLYLINE
  8
ITEM_50
 66
     1
 10
0.0
 20
0.0
 30
0.0
  0
VERTEX
  8
ITEM_50
 10
152.0565040271272
 20
138.2012402368274
 30
0.0
  0
VERTEX
  8
ITEM_50
 10
152.0618710305654
 20
138.1898697671386
 30
0.0
  0
SEQEND
  8
ITEM_50
  0
LINE
  8
ITEM_50
 10
98.22525930802382
 20
228.9820826507039
 30
0.0
 11
100.4252593080238
 21
228.9820826507039
 31
0.0
  0
LINE
  8
ITEM_50
 10
91.02525930802381
 20
228.9820826507038
 30
0.0
 11
93.42525930802382
 21
228.9820826507038
 31
0.0
  0
LINE
  8
ITEM_50
 10
83.82525930802381
 20
228.9820826507038
 30
0.0
 11
86.22525930802382
 21
228.9820826507038
 31
0.0
  0
LINE
  8
ITEM_50
 10
76.82525930802381
 20
228.9820826507039
 30
0.0
 11
79.02525930802381
 21
228.9820826507039
 31
0.0
  0
LINE
  8
ITEM_50
 10
99.82525930802066
 20
228.9820826507039
 30
0.0
 11
99.82525930802066
 21
218.5820826507008
 31
0.0
  0
LINE
  8
ITEM_50
 10
98.82525930802069
 20
228.9820826507039
 30
0.0
 11
98.82525930802066
 21
218.5820826507008
 31
0.0
  0
LINE
  8
ITEM_50
 10
92.72525930802065
 20
228.9820826507038
 30
0.0
 11
92.72525930802063
 21
218.5820826507008
 31
0.0
  0
LINE
  8
ITEM_50
 10
91.72525930802063
 20
228.9820826507038
 30
0.0
 11
91.72525930802063
 21
218.5820826507008
 31
0.0
  0
LINE
  8
ITEM_50
 10
85.52525930802066
 20
228.9820826507038
 30
0.0
 11
85.52525930802065
 21
218.5820826507008
 31
0.0
  0
LINE
  8
ITEM_50
 10
84.52525930802065
 20
228.9820826507038
 30
0.0
 11
84.52525930802065
 21
218.5820826507008
 31
0.0
  0
LINE
  8
ITEM_50
 10
78.42525930802067
 20
228.982082650704
 30
0.0
 11
78.42525930802065
 21
218.5820826507008
 31
0.0
  0
LINE
  8
ITEM_50
 10
77.42525930802067
 20
228.982082650704
 30
0.0
 11
77.42525930802065
 21
218.5820826507008
 31
0.0
  0
LINE
  8
ITEM_50
 10
82.02525930802381
 20
227.7820826507041
 30
0.0
 11
82.02525930802381
 21
219.3820826507008
 31
0.0
  0
LINE
  8
ITEM_50
 10
80.8252593080238
 20
227.7820826507041
 30
0.0
 11
80.8252593080238
 21
219.3820826507008
 31
0.0
  0
LINE
  8
ITEM_50
 10
89.22525930802382
 20
227.7820826507039
 30
0.0
 11
89.22525930802382
 21
219.3820826507008
 31
0.0
  0
LINE
  8
ITEM_50
 10
88.0252593080238
 20
227.7820826507039
 30
0.0
 11
88.0252593080238
 21
219.3820826507008
 31
0.0
  0
LINE
  8
ITEM_50
 10
96.42525930802381
 20
227.7820826507037
 30
0.0
 11
96.42525930802381
 21
219.3820826507008
 31
0.0
  0
LINE
  8
ITEM_50
 10
95.22525930802382
 20
227.7820826507037
 30
0.0
 11
95.2252593080238
 21
219.3820826507008
 31
0.0
  0
CIRCLE
  8
ITEM_50
 10
95.82525930802381
 20
228.5820826507037
 30
0.0
 40
1.0
  0
CIRCLE
  8
ITEM_50
 10
88.62525930802381
 20
228.5820826507039
 30
0.0
 40
1.0
  0
CIRCLE
  8
ITEM_50
 10
81.42525930802382
 20
228.5820826507041
 30
0.0
 40
1.0
  0
LINE
  8
ITEM_50
 10
98.22525930802385
 20
232.8018865534225
 30
0.0
 11
100.4252593080238
 21
232.8018865534225
 31
0.0
  0
LINE
  8
ITEM_50
 10
91.12525930802381
 20
232.8018865534225
 30
0.0
 11
93.3252593080238
 21
232.8018865534225
 31
0.0
  0
LINE
  8
ITEM_50
 10
83.92525930802382
 20
232.8018865534225
 30
0.0
 11
86.1252593080238
 21
232.8018865534225
 31
0.0
  0
LINE
  8
ITEM_50
 10
76.82525930802381
 20
232.8018865534225
 30
0.0
 11
79.02525930802379
 21
232.8018865534225
 31
0.0
  0
LINE
  8
ITEM_50
 10
100.4252593080238
 20
232.8018865534225
 30
0.0
 11
100.4252593080238
 21
234.9820826507039
 31
0.0
  0
LINE
  8
ITEM_50
 10
98.22525930802385
 20
232.8018865534225
 30
0.0
 11
98.22525930802385
 21
234.9820826507039
 31
0.0
  0
LINE
  8
ITEM_50
 10
93.3252593080238
 20
234.9820826507039
 30
0.0
 11
93.3252593080238
 21
232.8018865534225
 31
0.0
  0
LINE
  8
ITEM_50
 10
91.12525930802381
 20
234.9820826507039
 30
0.0
 11
91.12525930802382
 21
232.8018865534225
 31
0.0
  0
LINE
  8
ITEM_50
 10
86.12525930802381
 20
234.9820826507039
 30
0.0
 11
86.12525930802381
 21
232.8018865534225
 31
0.0
  0
LINE
  8
ITEM_50
 10
83.92525930802382
 20
234.9820826507039
 30
0.0
 11
83.92525930802382
 21
232.8018865534225
 31
0.0
  0
LINE
  8
ITEM_50
 10
79.02525930802379
 20
232.8018865534225
 30
0.0
 11
79.02525930802379
 21
234.9820826507039
 31
0.0
  0
LINE
  8
ITEM_50
 10
76.82525930802381
 20
232.8018865534225
 30
0.0
 11
76.8252593080238
 21
234.9820826507039
 31
0.0
  0
ARC
  8
ITEM_50
 10
99.32525930802381
 20
231.7820826507039
 30
0.0
 40
1.5
 50
137.1665719339308
 51
42.8334280660676
  0
ARC
  8
ITEM_50
 10
92.2252593080238
 20
231.7820826507039
 30
0.0
 40
1.5
 50
137.1665719339324
 51
42.8334280660676
  0
ARC
  8
ITEM_50
 10
85.02525930802381
 20
231.7820826507039
 30
0.0
 40
1.5
 50
137.166571933932
 51
42.83342806606797
  0
ARC
  8
ITEM_50
 10
77.92525930802381
 20
231.7820826507039
 30
0.0
 40
1.5
 50
137.166571933932
 51
42.83342806606797
  0
LINE
  8
ITEM_50
 10
97.22525930802382
 20
219.3820826507008
 30
0.0
 11
98.22525930802382
 21
219.3820826507008
 31
0.0
  0
LINE
  8
ITEM_50
 10
95.2252593080238
 20
219.3820826507008
 30
0.0
 11
96.42525930802381
 21
219.3820826507008
 31
0.0
  0
LINE
  8
ITEM_50
 10
88.0252593080238
 20
219.3820826507008
 30
0.0
 11
89.22525930802382
 21
219.3820826507008
 31
0.0
  0
LINE
  8
ITEM_50
 10
90.02525930802381
 20
219.3820826507008
 30
0.0
 11
91.02525930802381
 21
219.3820826507008
 31
0.0
  0
LINE
  8
ITEM_50
 10
100.4252593080237
 20
219.3820826507008
 30
0.0
 11
101.4252593080238
 21
219.3820826507008
 31
0.0
  0
LINE
  8
ITEM_50
 10
93.42525930802381
 20
219.3820826507008
 30
0.0
 11
94.42525930802381
 21
219.3820826507008
 31
0.0
  0
LINE
  8
ITEM_50
 10
100.4252593080238
 20
218.5820826507008
 30
0.0
 11
100.4252593080238
 21
219.3820826507008
 31
0.0
  0
LINE
  8
ITEM_50
 10
98.22525930802382
 20
219.3820826507008
 30
0.0
 11
98.22525930802382
 21
218.5820826507008
 31
0.0
  0
LINE
  8
ITEM_50
 10
93.42525930802382
 20
219.3820826507007
 30
0.0
 11
93.42525930802383
 21
218.5820826507008
 31
0.0
  0
LINE
  8
ITEM_50
 10
91.02525930802381
 20
219.3820826507007
 30
0.0
 11
91.02525930802381
 21
218.5820826507008
 31
0.0
  0
LINE
  8
ITEM_50
 10
86.22525930802382
 20
219.3820826507007
 30
0.0
 11
86.22525930802382
 21
218.5820826507008
 31
0.0
  0
LINE
  8
ITEM_50
 10
82.82525930802381
 20
219.3820826507007
 30
0.0
 11
83.82525930802067
 21
219.3820826507008
 31
0.0
  0
LINE
  8
ITEM_50
 10
86.2252593080238
 20
219.3820826507008
 30
0.0
 11
87.22525930802383
 21
219.3820826507008
 31
0.0
  0
LINE
  8
ITEM_50
 10
83.82525930802067
 20
219.3820826507008
 30
0.0
 11
83.82525930802067
 21
218.5820826507008
 31
0.0
  0
LINE
  8
ITEM_50
 10
101.4252593080238
 20
228.9820826507039
 30
0.0
 11
101.4252593080238
 21
234.9820826507039
 31
0.0
  0
LINE
  8
ITEM_50
 10
97.22525930802382
 20
228.1820826507039
 30
0.0
 11
97.22525930802382
 21
219.3820826507008
 31
0.0
  0
LINE
  8
ITEM_50
 10
100.4252593080238
 20
228.1820826507039
 30
0.0
 11
101.4252593080238
 21
228.1820826507039
 31
0.0
  0
LINE
  8
ITEM_50
 10
100.4252593080238
 20
228.9820826507039
 30
0.0
 11
101.4252593080238
 21
228.9820826507039
 31
0.0
  0
LINE
  8
ITEM_50
 10
94.42525930802383
 20
228.1820826507039
 30
0.0
 11
94.42525930802381
 21
219.3820826507008
 31
0.0
  0
LINE
  8
ITEM_50
 10
90.02525930802381
 20
228.1820826507039
 30
0.0
 11
90.02525930802381
 21
219.3820826507008
 31
0.0
  0
LINE
  8
ITEM_50
 10
93.42525930802382
 20
228.9820826507038
 30
0.0
 11
94.42525930802382
 21
228.9820826507039
 31
0.0
  0
LINE
  8
ITEM_50
 10
93.42525930802383
 20
228.1820826507039
 30
0.0
 11
94.42525930802382
 21
228.1820826507039
 31
0.0
  0
LINE
  8
ITEM_50
 10
87.22525930802382
 20
228.1820826507039
 30
0.0
 11
87.22525930802383
 21
219.3820826507008
 31
0.0
  0
LINE
  8
ITEM_50
 10
82.82525930802381
 20
228.1820826507039
 30
0.0
 11
82.82525930802381
 21
219.3820826507007
 31
0.0
  0
LINE
  8
ITEM_50
 10
86.22525930802382
 20
228.1820826507039
 30
0.0
 11
87.22525930802382
 21
228.1820826507039
 31
0.0
  0
LINE
  8
ITEM_50
 10
86.22525930802382
 20
228.9820826507038
 30
0.0
 11
87.22525930802382
 21
228.9820826507039
 31
0.0
  0
LINE
  8
ITEM_50
 10
80.0252593080238
 20
228.1820826507039
 30
0.0
 11
80.0252593080238
 21
219.3820826507007
 31
0.0
  0
LINE
  8
ITEM_50
 10
75.82525930802381
 20
228.9820826507039
 30
0.0
 11
75.8252593080238
 21
234.9820826507039
 31
0.0
  0
LINE
  8
ITEM_50
 10
100.4252593080238
 20
228.1820826507039
 30
0.0
 11
100.4252593080238
 21
228.9820826507039
 31
0.0
  0
LINE
  8
ITEM_50
 10
98.22525930802382
 20
228.9820826507039
 30
0.0
 11
98.22525930802382
 21
228.1820826507039
 31
0.0
  0
LINE
  8
ITEM_50
 10
93.42525930802382
 20
228.9820826507038
 30
0.0
 11
93.42525930802383
 21
228.1820826507039
 31
0.0
  0
LINE
  8
ITEM_50
 10
91.02525930802381
 20
228.9820826507038
 30
0.0
 11
91.02525930802381
 21
228.1820826507039
 31
0.0
  0
LINE
  8
ITEM_50
 10
86.22525930802382
 20
228.9820826507038
 30
0.0
 11
86.22525930802382
 21
228.1820826507039
 31
0.0
  0
LINE
  8
ITEM_50
 10
83.82525930802381
 20
228.9820826507038
 30
0.0
 11
83.82525930802381
 21
228.1820826507039
 31
0.0
  0
LINE
  8
ITEM_50
 10
80.82525930802381
 20
219.3820826507008
 30
0.0
 11
82.02525930802381
 21
219.3820826507007
 31
0.0
  0
LINE
  8
ITEM_50
 10
79.02525930802067
 20
219.3820826507008
 30
0.0
 11
80.02525930802381
 21
219.3820826507008
 31
0.0
  0
LINE
  8
ITEM_50
 10
79.02525930802069
 20
219.3820826507008
 30
0.0
 11
79.02525930802069
 21
218.5820826507008
 31
0.0
  0
LINE
  8
ITEM_50
 10
76.82525930802067
 20
219.3820826507008
 30
0.0
 11
76.82525930802067
 21
218.5820826507008
 31
0.0
  0
LINE
  8
ITEM_50
 10
79.02525930802383
 20
228.9820826507039
 30
0.0
 11
80.0252593080238
 21
228.9820826507039
 31
0.0
  0
LINE
  8
ITEM_50
 10
79.02525930802383
 20
228.1820826507039
 30
0.0
 11
80.0252593080238
 21
228.1820826507039
 31
0.0
  0
LINE
  8
ITEM_50
 10
79.02525930802381
 20
228.9820826507039
 30
0.0
 11
79.02525930802381
 21
228.1820826507039
 31
0.0
  0
LINE
  8
ITEM_50
 10
76.82525930802381
 20
228.1820826507039
 30
0.0
 11
76.82525930802381
 21
228.9820826507039
 31
0.0
  0
LINE
  8
ITEM_50
 10
75.82525930802381
 20
219.3820826507008
 30
0.0
 11
76.82525930802066
 21
219.3820826507008
 31
0.0
  0
LINE
  8
ITEM_50
 10
97.22525930802382
 20
228.1820826507039
 30
0.0
 11
98.22525930802385
 21
228.1820826507039
 31
0.0
  0
LINE
  8
ITEM_50
 10
90.02525930802381
 20
228.1820826507039
 30
0.0
 11
91.02525930802381
 21
228.1820826507039
 31
0.0
  0
LINE
  8
ITEM_50
 10
82.82525930802381
 20
228.1820826507039
 30
0.0
 11
83.82525930802381
 21
228.1820826507039
 31
0.0
  0
LINE
  8
ITEM_50
 10
75.82525930802381
 20
228.1820826507039
 30
0.0
 11
76.82525930802381
 21
228.1820826507039
 31
0.0
  0
LINE
  8
ITEM_50
 10
97.22525930802382
 20
228.9820826507039
 30
0.0
 11
98.22525930802385
 21
228.9820826507039
 31
0.0
  0
LINE
  8
ITEM_50
 10
90.02525930802381
 20
228.9820826507039
 30
0.0
 11
91.02525930802381
 21
228.9820826507038
 31
0.0
  0
LINE
  8
ITEM_50
 10
82.82525930802381
 20
228.9820826507039
 30
0.0
 11
83.82525930802381
 21
228.9820826507038
 31
0.0
  0
LINE
  8
ITEM_50
 10
75.82525930802381
 20
228.9820826507039
 30
0.0
 11
76.82525930802381
 21
228.9820826507039
 31
0.0
  0
LINE
  8
ITEM_50
 10
90.02525930802381
 20
234.9820826507039
 30
0.0
 11
94.42525930802382
 21
234.9820826507039
 31
0.0
  0
LINE
  8
ITEM_50
 10
88.02525930802381
 20
234.9820826507039
 30
0.0
 11
89.22525930802382
 21
234.9820826507039
 31
0.0
  0
LINE
  8
ITEM_50
 10
89.22525930802382
 20
235.7820826507039
 30
0.0
 11
95.2252593080238
 21
235.7820826507039
 31
0.0
  0
LINE
  8
ITEM_50
 10
97.22525930802382
 20
234.9820826507039
 30
0.0
 11
101.4252593080238
 21
234.9820826507039
 31
0.0
  0
LINE
  8
ITEM_50
 10
95.2252593080238
 20
234.9820826507039
 30
0.0
 11
96.42525930802382
 21
234.9820826507039
 31
0.0
  0
LINE
  8
ITEM_50
 10
96.42525930802383
 20
235.7820826507039
 30
0.0
 11
101.4252593080238
 21
235.7820826507039
 31
0.0
  0
LINE
  8
ITEM_50
 10
101.4252593080238
 20
235.7820826507039
 30
0.0
 11
101.4252593080238
 21
240.2820826507039
 31
0.0
  0
LINE
  8
ITEM_50
 10
82.82525930802381
 20
234.9820826507039
 30
0.0
 11
87.22525930802382
 21
234.9820826507039
 31
0.0
  0
LINE
  8
ITEM_50
 10
80.8252593080238
 20
234.9820826507039
 30
0.0
 11
82.02525930802381
 21
234.9820826507039
 31
0.0
  0
LINE
  8
ITEM_50
 10
82.02525930802381
 20
235.7820826507039
 30
0.0
 11
88.02525930802381
 21
235.7820826507039
 31
0.0
  0
LINE
  8
ITEM_50
 10
75.8252593080238
 20
235.7820826507039
 30
0.0
 11
75.82525930802381
 21
240.2820826507039
 31
0.0
  0
LINE
  8
ITEM_50
 10
97.22525930802382
 20
234.9820826507039
 30
0.0
 11
97.22525930802382
 21
228.9820826507039
 31
0.0
  0
LINE
  8
ITEM_50
 10
96.42525930802382
 20
234.9820826507039
 30
0.0
 11
96.42525930802381
 21
229.3820826507037
 31
0.0
  0
LINE
  8
ITEM_50
 10
94.42525930802382
 20
234.9820826507039
 30
0.0
 11
94.42525930802382
 21
228.9820826507039
 31
0.0
  0
LINE
  8
ITEM_50
 10
95.22525930802382
 20
234.9820826507039
 30
0.0
 11
95.22525930802382
 21
229.3820826507037
 31
0.0
  0
LINE
  8
ITEM_50
 10
88.02525930802381
 20
234.9820826507039
 30
0.0
 11
88.0252593080238
 21
229.3820826507039
 31
0.0
  0
LINE
  8
ITEM_50
 10
87.22525930802382
 20
234.9820826507039
 30
0.0
 11
87.22525930802382
 21
228.9820826507039
 31
0.0
  0
LINE
  8
ITEM_50
 10
89.22525930802382
 20
234.9820826507039
 30
0.0
 11
89.22525930802382
 21
229.3820826507039
 31
0.0
  0
LINE
  8
ITEM_50
 10
90.02525930802381
 20
234.9820826507039
 30
0.0
 11
90.02525930802381
 21
228.9820826507039
 31
0.0
  0
LINE
  8
ITEM_50
 10
82.82525930802381
 20
234.9820826507039
 30
0.0
 11
82.82525930802381
 21
228.9820826507039
 31
0.0
  0
LINE
  8
ITEM_50
 10
82.02525930802381
 20
234.9820826507039
 30
0.0
 11
82.02525930802381
 21
229.3820826507041
 31
0.0
  0
LINE
  8
ITEM_50
 10
80.02525930802381
 20
234.9820826507039
 30
0.0
 11
80.0252593080238
 21
228.9820826507039
 31
0.0
  0
LINE
  8
ITEM_50
 10
80.82525930802381
 20
234.9820826507039
 30
0.0
 11
80.82525930802381
 21
229.3820826507041
 31
0.0
  0
LINE
  8
ITEM_50
 10
75.82525930802381
 20
234.9820826507039
 30
0.0
 11
80.0252593080238
 21
234.9820826507039
 31
0.0
  0
LINE
  8
ITEM_50
 10
88.02525930802381
 20
235.7820826507039
 30
0.0
 11
88.02525930802381
 21
240.2820826507039
 31
0.0
  0
LINE
  8
ITEM_50
 10
89.22525930802382
 20
235.7820826507039
 30
0.0
 11
89.2252593080238
 21
240.2820826507039
 31
0.0
  0
LINE
  8
ITEM_50
 10
95.2252593080238
 20
235.7820826507039
 30
0.0
 11
95.2252593080238
 21
240.2820826507039
 31
0.0
  0
LINE
  8
ITEM_50
 10
82.02525930802381
 20
235.7820826507039
 30
0.0
 11
82.02525930802381
 21
240.2820826507039
 31
0.0
  0
LINE
  8
ITEM_50
 10
96.42525930802382
 20
235.7820826507039
 30
0.0
 11
96.42525930802381
 21
240.2820826507039
 31
0.0
  0
LINE
  8
ITEM_50
 10
80.82525930802381
 20
235.7820826507039
 30
0.0
 11
80.82525930802381
 21
240.2820826507039
 31
0.0
  0
LINE
  8
ITEM_50
 10
101.4252593080237
 20
219.3820826507008
 30
0.0
 11
101.4252593080238
 21
228.1820826507039
 31
0.0
  0
LINE
  8
ITEM_50
 10
75.82525930802381
 20
219.3820826507008
 30
0.0
 11
75.82525930802381
 21
228.1820826507039
 31
0.0
  0
LINE
  8
ITEM_50
 10
75.82525930802381
 20
235.7820826507039
 30
0.0
 11
80.82525930802381
 21
235.7820826507039
 31
0.0
  0
LINE
  8
ITEM_50
 10
102.6252593080238
 20
218.5820826507008
 30
0.0
 11
102.6252593080238
 21
240.2820826507039
 31
0.0
  0
LINE
  8
ITEM_50
 10
74.62525930802381
 20
218.5820826507008
 30
0.0
 11
74.62525930802381
 21
240.2820826507039
 31
0.0
  0
LINE
  8
ITEM_50
 10
74.62525930802381
 20
240.2820826507039
 30
0.0
 11
102.6252593080238
 21
240.2820826507039
 31
0.0
  0
LINE
  8
ITEM_50
 10
96.82525930802383
 20
241.2820826507039
 30
0.0
 11
103.3252593080238
 21
241.2820826507039
 31
0.0
  0
LINE
  8
ITEM_50
 10
96.82525930802383
 20
240.2820826507039
 30
0.0
 11
96.82525930802383
 21
241.2820826507039
 31
0.0
  0
LINE
  8
ITEM_50
 10
85.92525930802381
 20
241.2820826507039
 30
0.0
 11
85.92525930802381
 21
240.2820826507039
 31
0.0
  0
LINE
  8
ITEM_50
 10
73.92525930802381
 20
241.2820826507039
 30
0.0
 11
85.92525930802381
 21
241.2820826507039
 31
0.0
  0
LINE
  8
ITEM_50
 10
87.62525930802381
 20
218.5820826507008
 30
0.0
 11
87.62525930802381
 21
217.0820826507008
 31
0.0
  0
LINE
  8
ITEM_50
 10
86.92525930802381
 20
218.5820826507008
 30
0.0
 11
86.92525930802381
 21
215.0820826507039
 31
0.0
  0
LINE
  8
ITEM_50
 10
97.62525930802382
 20
217.0820826507008
 30
0.0
 11
97.62525930802381
 21
218.5820826507008
 31
0.0
  0
LINE
  8
ITEM_50
 10
98.32525930802381
 20
215.0820826507039
 30
0.0
 11
98.32525930802381
 21
218.5820826507008
 31
0.0
  0
LINE
  8
ITEM_50
 10
90.12525930802382
 20
213.2820826507039
 30
0.0
 11
90.12525930802382
 21
215.0820826507039
 31
0.0
  0
LINE
  8
ITEM_50
 10
95.12525930802382
 20
213.2820826507039
 30
0.0
 11
95.12525930802382
 21
215.0820826507039
 31
0.0
  0
LINE
  8
ITEM_50
 10
86.92525930802381
 20
217.0820826507008
 30
0.0
 11
98.32525930802381
 21
217.0820826507008
 31
0.0
  0
LINE
  8
ITEM_50
 10
73.92525930802381
 20
218.5820826507008
 30
0.0
 11
103.3252593080238
 21
218.5820826507008
 31
0.0
  0
LINE
  8
ITEM_50
 10
292.2501670916117
 20
215.0820826507039
 30
0.0
 11
292.2501670916117
 21
213.2820826507038
 31
0.0
  0
LINE
  8
ITEM_50
 10
287.2501670916117
 20
215.0820826507039
 30
0.0
 11
287.2501670916117
 21
213.2820826507038
 31
0.0
  0
LINE
  8
ITEM_50
 10
294.7501670916117
 20
217.0820826507039
 30
0.0
 11
294.7501670916117
 21
218.5820826507039
 31
0.0
  0
LINE
  8
ITEM_50
 10
295.4501670916118
 20
215.0820826507039
 30
0.0
 11
295.4501670916117
 21
218.5820826507039
 31
0.0
  0
LINE
  8
ITEM_50
 10
284.0501670916117
 20
217.0820826507038
 30
0.0
 11
295.4501670916118
 21
217.0820826507039
 31
0.0
  0
LINE
  8
ITEM_50
 10
284.7501670916118
 20
218.5820826507039
 30
0.0
 11
284.7501670916117
 21
217.0820826507038
 31
0.0
  0
LINE
  8
ITEM_50
 10
284.0501670916117
 20
218.5820826507039
 30
0.0
 11
284.0501670916117
 21
215.0820826507039
 31
0.0
  0
LINE
  8
ITEM_50
 10
308.4501670916117
 20
241.2820826507038
 30
0.0
 11
296.4501670916117
 21
241.2820826507039
 31
0.0
  0
LINE
  8
ITEM_50
 10
296.4501670916118
 20
240.282082650707
 30
0.0
 11
296.4501670916117
 21
241.2820826507039
 31
0.0
  0
LINE
  8
ITEM_50
 10
279.0501670916117
 20
218.5820826507039
 30
0.0
 11
308.4501670916117
 21
218.5820826507039
 31
0.0
  0
LINE
  8
ITEM_50
 10
279.0501670916117
 20
246.2820826507039
 30
0.0
 11
279.0501670916117
 21
213.2820826507038
 31
0.0
  0
LINE
  8
ITEM_50
 10
308.4501670916117
 20
213.2820826507038
 30
0.0
 11
308.4501670916117
 21
246.2820826507039
 31
0.0
  0
LINE
  8
ITEM_50
 10
279.0501670916117
 20
215.0820826507039
 30
0.0
 11
308.4501670916117
 21
215.0820826507039
 31
0.0
  0
LINE
  8
ITEM_50
 10
310.2501670916117
 20
246.2820826507039
 30
0.0
 11
277.2501670916117
 21
246.2820826507039
 31
0.0
  0
LINE
  8
ITEM_50
 10
310.2501670916117
 20
213.2820826507038
 30
0.0
 11
310.2501670916117
 21
246.2820826507039
 31
0.0
  0
LINE
  8
ITEM_50
 10
277.2501670916117
 20
213.2820826507038
 30
0.0
 11
310.2501670916117
 21
213.2820826507038
 31
0.0
  0
LINE
  8
ITEM_50
 10
277.2501670916117
 20
246.2820826507039
 30
0.0
 11
277.2501670916117
 21
213.2820826507038
 31
0.0
  0
LINE
  8
ITEM_50
 10
73.92525930802381
 20
246.2820826507039
 30
0.0
 11
73.92525930802381
 21
213.2820826507039
 31
0.0
  0
LINE
  8
ITEM_50
 10
103.3252593080238
 20
213.2820826507039
 30
0.0
 11
103.3252593080238
 21
246.2820826507039
 31
0.0
  0
LINE
  8
ITEM_50
 10
73.92525930802381
 20
215.0820826507039
 30
0.0
 11
103.3252593080238
 21
215.0820826507039
 31
0.0
  0
LINE
  8
ITEM_50
 10
72.12525930802381
 20
213.2820826507039
 30
0.0
 11
72.12525930802381
 21
246.2820826507039
 31
0.0
  0
LINE
  8
ITEM_50
 10
105.1252593080238
 20
213.2820826507039
 30
0.0
 11
72.12525930802381
 21
213.2820826507039
 31
0.0
  0
LINE
  8
ITEM_50
 10
105.1252593080238
 20
246.2820826507039
 30
0.0
 11
105.1252593080238
 21
213.2820826507039
 31
0.0
  0
LINE
  8
ITEM_50
 10
72.12525930802381
 20
246.2820826507039
 30
0.0
 11
105.1252593080238
 21
246.2820826507039
 31
0.0
  0
POLYLINE
  8
ITEM_50
 66
     1
 10
0.0
 20
0.0
 30
0.0
  0
VERTEX
  8
ITEM_50
 10
225.6269771706131
 20
138.2012402368272
 30
0.0
  0
VERTEX
  8
ITEM_50
 10
225.6216101671749
 20
138.1898697671384
 30
0.0
  0
SEQEND
  8
ITEM_50
  0
LINE
  8
ITEM_50
 10
225.5292616916604
 20
139.8643754470993
 30
0.0
 11
223.119904931029
 21
137.455018686468
 31
0.0
  0
ARC
  8
ITEM_50
 10
224.0417405988701
 20
138.9425397792583
 30
0.0
 40
1.75
 50
334.9379364322476
 51
334.5262743312943
  0
LINE
  8
ITEM_50
 10
224.9635762667111
 20
140.4300608720486
 30
0.0
 11
222.5542195060798
 21
138.0207041114172
 31
0.0
  0
LINE
  8
ITEM_50
 10
225.5292616916604
 20
144.7207041114172
 30
0.0
 11
223.119904931029
 21
147.1300608720486
 31
0.0
  0
LINE
  8
ITEM_50
 10
224.9635762667112
 20
144.155018686468
 30
0.0
 11
222.5542195060798
 21
146.5643754470993
 31
0.0
  0
CIRCLE
  8
ITEM_50
 10
224.0417405988701
 20
145.6425397792583
 30
0.0
 40
1.75
  0
LINE
  8
ITEM_50
 10
225.5292616916604
 20
153.7643754470993
 30
0.0
 11
223.1199049310291
 21
151.355018686468
 31
0.0
  0
LINE
  8
ITEM_50
 10
224.9635762667112
 20
154.3300608720486
 30
0.0
 11
222.5542195060798
 21
151.9207041114172
 31
0.0
  0
CIRCLE
  8
ITEM_50
 10
224.0417405988701
 20
152.8425397792583
 30
0.0
 40
1.75
  0
LINE
  8
ITEM_50
 10
225.7454131026102
 20
159.9425397792583
 30
0.0
 11
222.33806809513
 21
159.9425397792583
 31
0.0
  0
LINE
  8
ITEM_50
 10
225.7454131026102
 20
159.1425397792583
 30
0.0
 11
222.33806809513
 21
159.1425397792583
 31
0.0
  0
CIRCLE
  8
ITEM_50
 10
224.0417405988701
 20
159.5425397792583
 30
0.0
 40
1.75
  0
CIRCLE
  8
ITEM_50
 10
224.0417405988701
 20
138.9425397792583
 30
0.0
 40
2.0
  0
CIRCLE
  8
ITEM_50
 10
224.0417405988701
 20
145.6425397792583
 30
0.0
 40
2.0
  0
CIRCLE
  8
ITEM_50
 10
224.0417405988701
 20
152.8425397792583
 30
0.0
 40
2.0
  0
CIRCLE
  8
ITEM_50
 10
224.0417405988701
 20
159.5425397792583
 30
0.0
 40
2.0
  0
LINE
  8
ITEM_50
 10
228.3417405988701
 20
162.0425397792583
 30
0.0
 11
224.6417405988701
 21
162.0425397792583
 31
0.0
  0
LINE
  8
ITEM_50
 10
228.3417405988701
 20
157.0425397792583
 30
0.0
 11
224.64174059887
 21
157.0425397792583
 31
0.0
  0
LINE
  8
ITEM_50
 10
228.3417405988701
 20
155.8425397792583
 30
0.0
 11
224.64174059887
 21
155.8425397792583
 31
0.0
  0
ARC
  8
ITEM_50
 10
224.0417405988701
 20
152.8425397792583
 30
0.0
 40
2.5
 50
283.8865403626288
 51
76.11345963737116
  0
ARC
  8
ITEM_50
 10
224.0417405988701
 20
159.5425397792583
 30
0.0
 40
2.5
 50
283.8865403626281
 51
76.11345963737045
  0
LINE
  8
ITEM_50
 10
224.6417405988701
 20
149.8425397792583
 30
0.0
 11
224.6417405988701
 21
150.415607559356
 31
0.0
  0
LINE
  8
ITEM_50
 10
223.4417405988701
 20
155.2694719991606
 30
0.0
 11
223.4417405988701
 21
155.8425397792583
 31
0.0
  0
LINE
  8
ITEM_50
 10
224.6417405988701
 20
155.2694719991606
 30
0.0
 11
224.6417405988701
 21
155.8425397792583
 31
0.0
  0
LINE
  8
ITEM_50
 10
223.4417405988701
 20
161.9694719991606
 30
0.0
 11
223.4417405988701
 21
162.0425397792583
 31
0.0
  0
LINE
  8
ITEM_50
 10
224.6417405988701
 20
161.9694719991606
 30
0.0
 11
224.6417405988701
 21
162.0425397792583
 31
0.0
  0
LINE
  8
ITEM_50
 10
223.4417405988701
 20
162.0425397792583
 30
0.0
 11
220.6417405988702
 21
162.0425397792583
 31
0.0
  0
LINE
  8
ITEM_50
 10
224.6417405988701
 20
157.0425397792583
 30
0.0
 11
224.6417405988701
 21
157.115607559356
 31
0.0
  0
LINE
  8
ITEM_50
 10
223.4417405988701
 20
157.0425397792583
 30
0.0
 11
223.4417405988701
 21
157.115607559356
 31
0.0
  0
LINE
  8
ITEM_50
 10
223.4417405988701
 20
157.0425397792583
 30
0.0
 11
219.5417405988701
 21
157.0425397792583
 31
0.0
  0
ARC
  8
ITEM_50
 10
224.0417405988701
 20
159.5425397792583
 30
0.0
 40
2.5
 50
103.8865403626295
 51
256.1134596373711
  0
LINE
  8
ITEM_50
 10
223.4417405988701
 20
155.8425397792583
 30
0.0
 11
219.5417405988701
 21
155.8425397792583
 31
0.0
  0
ARC
  8
ITEM_50
 10
224.0417405988701
 20
152.8425397792583
 30
0.0
 40
2.5
 50
103.8865403626295
 51
256.1134596373718
  0
LINE
  8
ITEM_50
 10
223.4417405988701
 20
149.8425397792583
 30
0.0
 11
223.4417405988701
 21
150.415607559356
 31
0.0
  0
LINE
  8
ITEM_50
 10
223.4417405988701
 20
149.8425397792583
 30
0.0
 11
219.5417405988701
 21
149.8425397792583
 31
0.0
  0
LINE
  8
ITEM_50
 10
228.3417405988701
 20
149.8425397792583
 30
0.0
 11
224.6417405988701
 21
149.8425397792583
 31
0.0
  0
ARC
  8
ITEM_50
 10
224.0417405988701
 20
145.6425397792583
 30
0.0
 40
2.5
 50
103.8865403626281
 51
256.1134596373704
  0
LINE
  8
ITEM_50
 10
223.4417405988701
 20
148.6425397792583
 30
0.0
 11
219.5417405988701
 21
148.6425397792582
 31
0.0
  0
LINE
  8
ITEM_50
 10
223.4417405988701
 20
142.6425397792583
 30
0.0
 11
220.6417405988702
 21
142.6425397792583
 31
0.0
  0
ARC
  8
ITEM_50
 10
224.0417405988701
 20
138.9425397792583
 30
0.0
 40
2.5
 50
103.8865403626288
 51
256.1134596373704
  0
LINE
  8
ITEM_50
 10
223.4417405988701
 20
141.4425397792583
 30
0.0
 11
220.6417405988702
 21
141.4425397792583
 31
0.0
  0
LINE
  8
ITEM_50
 10
223.4417405988701
 20
141.4425397792583
 30
0.0
 11
223.4417405988701
 21
141.3694719991606
 31
0.0
  0
LINE
  8
ITEM_50
 10
224.6417405988701
 20
141.4425397792583
 30
0.0
 11
224.6417405988701
 21
141.3694719991606
 31
0.0
  0
LINE
  8
ITEM_50
 10
223.4417405988701
 20
136.4425397792583
 30
0.0
 11
220.6417405988702
 21
136.4425397792583
 31
0.0
  0
LINE
  8
ITEM_50
 10
224.6417405988701
 20
136.5156075593559
 30
0.0
 11
224.6417405988701
 21
136.4425397792583
 31
0.0
  0
LINE
  8
ITEM_50
 10
223.4417405988701
 20
136.5156075593559
 30
0.0
 11
223.4417405988701
 21
136.4425397792583
 31
0.0
  0
LINE
  8
ITEM_50
 10
224.6417405988701
 20
143.2156075593559
 30
0.0
 11
224.6417405988701
 21
142.6425397792583
 31
0.0
  0
LINE
  8
ITEM_50
 10
223.4417405988701
 20
143.215607559356
 30
0.0
 11
223.4417405988701
 21
142.6425397792583
 31
0.0
  0
LINE
  8
ITEM_50
 10
224.6417405988701
 20
148.6425397792583
 30
0.0
 11
224.6417405988701
 21
148.0694719991606
 31
0.0
  0
LINE
  8
ITEM_50
 10
223.4417405988701
 20
148.6425397792582
 30
0.0
 11
223.4417405988701
 21
148.0694719991606
 31
0.0
  0
ARC
  8
ITEM_50
 10
224.0417405988701
 20
138.9425397792583
 30
0.0
 40
2.5
 50
283.8865403626295
 51
76.1134596373718
  0
ARC
  8
ITEM_50
 10
224.0417405988701
 20
145.6425397792583
 30
0.0
 40
2.5
 50
283.8865403626288
 51
76.11345963737117
  0
LINE
  8
ITEM_50
 10
219.5417405988701
 20
157.4425397792583
 30
0.0
 11
219.5417405988701
 21
146.5425397792583
 31
0.0
  0
LINE
  8
ITEM_50
 10
228.3417405988701
 20
148.6425397792583
 30
0.0
 11
224.6417405988701
 21
148.6425397792583
 31
0.0
  0
LINE
  8
ITEM_50
 10
228.3417405988701
 20
142.6425397792583
 30
0.0
 11
224.64174059887
 21
142.6425397792583
 31
0.0
  0
LINE
  8
ITEM_50
 10
228.3417405988701
 20
141.4425397792583
 30
0.0
 11
224.64174059887
 21
141.4425397792583
 31
0.0
  0
LINE
  8
ITEM_50
 10
228.3417405988701
 20
136.4425397792583
 30
0.0
 11
224.6417405988701
 21
136.4425397792583
 31
0.0
  0
ARC
  8
ITEM_50
 10
231.0417405988702
 20
153.2425397792581
 30
0.0
 40
5.0
 50
237.3163611537413
 51
269.9999999999997
  0
LINE
  8
ITEM_50
 10
228.3417405988701
 20
163.2425397792583
 30
0.0
 11
228.3417405988701
 21
135.2425397792583
 31
0.0
  0
LINE
  8
ITEM_50
 10
228.3417405988701
 20
135.2425397792583
 30
0.0
 11
220.6417405988702
 21
135.2425397792583
 31
0.0
  0
LINE
  8
ITEM_50
 10
228.3417405988701
 20
163.2425397792583
 30
0.0
 11
220.641740598867
 21
163.2425397792583
 31
0.0
  0
LINE
  8
ITEM_50
 10
231.0417405988701
 20
147.5425397792581
 30
0.0
 11
232.8417405988701
 21
147.5425397792581
 31
0.0
  0
LINE
  8
ITEM_50
 10
231.0417405988701
 20
147.5425397792581
 30
0.0
 11
231.0417405988701
 21
148.2425397792581
 31
0.0
  0
LINE
  8
ITEM_50
 10
232.8417405988701
 20
134.5425397792581
 30
0.0
 11
232.8417405988701
 21
147.5425397792581
 31
0.0
  0
LINE
  8
ITEM_50
 10
231.04174059887
 20
134.5425397792581
 30
0.0
 11
231.0417405988701
 21
147.5425397792581
 31
0.0
  0
ARC
  8
ITEM_50
 10
231.0417405988702
 20
153.2425397792581
 30
0.0
 40
5.0
 50
89.99999999999974
 51
122.6836388462586
  0
LINE
  8
ITEM_50
 10
232.8417405988701
 20
158.9425397792581
 30
0.0
 11
231.0417405988702
 21
158.9425397792581
 31
0.0
  0
LINE
  8
ITEM_50
 10
231.0417405988702
 20
158.2425397792581
 30
0.0
 11
231.0417405988702
 21
163.9425397792581
 31
0.0
  0
LINE
  8
ITEM_50
 10
232.8417405988701
 20
158.9425397792581
 30
0.0
 11
232.8417405988702
 21
163.9425397792581
 31
0.0
  0
LINE
  8
ITEM_50
 10
236.3417405988701
 20
150.7425397792581
 30
0.0
 11
236.3417405988701
 21
132.7425397792583
 31
0.0
  0
LINE
  8
ITEM_50
 10
236.3417405988702
 20
150.7425397792581
 30
0.0
 11
230.3417405988702
 21
150.7425397792581
 31
0.0
  0
ARC
  8
ITEM_50
 10
230.3417405988702
 20
151.7425397792581
 30
0.0
 40
1.0
 50
180.0000000000001
 51
269.9999999999998
  0
LINE
  8
ITEM_50
 10
229.3417405988702
 20
151.7425397792581
 30
0.0
 11
229.3417405988702
 21
154.7425397792581
 31
0.0
  0
ARC
  8
ITEM_50
 10
230.3417405988702
 20
154.7425397792581
 30
0.0
 40
1.0
 50
89.99999999999987
 51
180.0
  0
LINE
  8
ITEM_50
 10
236.3417405988702
 20
155.7425397792581
 30
0.0
 11
230.3417405988702
 21
155.7425397792581
 31
0.0
  0
LINE
  8
ITEM_50
 10
146.6417405988702
 20
158.2425397792583
 30
0.0
 11
146.6417405988702
 21
163.9425397792583
 31
0.0
  0
ARC
  8
ITEM_50
 10
146.6417405988702
 20
153.2425397792583
 30
0.0
 40
5.0
 50
270.0
 51
302.6836388462585
  0
LINE
  8
ITEM_50
 10
146.6417405988702
 20
147.5425397792583
 30
0.0
 11
146.6417405988702
 21
148.2425397792583
 31
0.0
  0
LINE
  8
ITEM_50
 10
146.6417405988701
 20
134.5425397792583
 30
0.0
 11
146.6417405988702
 21
147.5425397792583
 31
0.0
  0
LINE
  8
ITEM_50
 10
144.8417405988701
 20
134.5425397792583
 30
0.0
 11
144.8417405988701
 21
147.5425397792583
 31
0.0
  0
LINE
  8
ITEM_50
 10
144.8417405988701
 20
158.9425397792583
 30
0.0
 11
144.8417405988701
 21
163.9425397792583
 31
0.0
  0
LINE
  8
ITEM_50
 10
144.8417405988701
 20
158.9425397792583
 30
0.0
 11
146.6417405988702
 21
158.9425397792583
 31
0.0
  0
LINE
  8
ITEM_50
 10
146.6417405988702
 20
147.5425397792583
 30
0.0
 11
144.8417405988701
 21
147.5425397792583
 31
0.0
  0
LINE
  8
ITEM_50
 10
141.3417405988701
 20
155.7425397792583
 30
0.0
 11
141.3417405988701
 21
165.7425397792583
 31
0.0
  0
ARC
  8
ITEM_50
 10
147.3417405988701
 20
151.7425397792583
 30
0.0
 40
1.0
 50
269.9999999999998
 51
359.9999999999996
  0
ARC
  8
ITEM_50
 10
147.3417405988701
 20
154.7425397792583
 30
0.0
 40
1.0
 50
359.9999999999997
 51
89.99999999999987
  0
LINE
  8
ITEM_50
 10
148.3417405988701
 20
151.7425397792583
 30
0.0
 11
148.3417405988701
 21
154.7425397792583
 31
0.0
  0
LINE
  8
ITEM_50
 10
141.3417405988701
 20
150.7425397792583
 30
0.0
 11
147.3417405988701
 21
150.7425397792583
 31
0.0
  0
LINE
  8
ITEM_50
 10
141.3417405988701
 20
155.7425397792583
 30
0.0
 11
147.3417405988701
 21
155.7425397792583
 31
0.0
  0
LINE
  8
ITEM_50
 10
159.3417405988701
 20
163.9425397792583
 30
0.0
 11
159.3417405988701
 21
132.7425397792583
 31
0.0
  0
LINE
  8
ITEM_50
 10
189.3417405988701
 20
154.7425397792583
 30
0.0
 11
189.3417405988701
 21
152.7425397792583
 31
0.0
  0
LINE
  8
ITEM_50
 10
189.3417405988701
 20
152.7425397792583
 30
0.0
 11
218.3417405988701
 21
152.7425397792583
 31
0.0
  0
LINE
  8
ITEM_50
 10
159.3417405988701
 20
154.7425397792583
 30
0.0
 11
189.3417405988701
 21
154.7425397792583
 31
0.0
  0
LINE
  8
ITEM_50
 10
220.6417405988671
 20
163.9425397792583
 30
0.0
 11
220.6417405988671
 21
157.4425397792583
 31
0.0
  0
LINE
  8
ITEM_50
 10
218.3417405988702
 20
157.4425397792583
 30
0.0
 11
220.641740598867
 21
157.4425397792583
 31
0.0
  0
LINE
  8
ITEM_50
 10
220.6417405988702
 20
146.5425397792583
 30
0.0
 11
220.6417405988702
 21
134.5425397792583
 31
0.0
  0
LINE
  8
ITEM_50
 10
218.3417405988702
 20
146.5425397792583
 30
0.0
 11
220.6417405988702
 21
146.5425397792583
 31
0.0
  0
LINE
  8
ITEM_50
 10
159.3417405988701
 20
146.5425397792583
 30
0.0
 11
157.0417405988701
 21
146.5425397792583
 31
0.0
  0
LINE
  8
ITEM_50
 10
157.0417405988701
 20
146.5425397792583
 30
0.0
 11
157.0417405988701
 21
134.5425397792583
 31
0.0
  0
LINE
  8
ITEM_50
 10
159.3417405988701
 20
134.5425397792583
 30
0.0
 11
141.3417405988701
 21
134.5425397792583
 31
0.0
  0
LINE
  8
ITEM_50
 10
218.3417405988702
 20
163.9425397792583
 30
0.0
 11
236.3417405988701
 21
163.9425397792583
 31
0.0
  0
LINE
  8
ITEM_50
 10
218.3417405988702
 20
165.7425397792583
 30
0.0
 11
218.3417405988701
 21
132.7425397792583
 31
0.0
  0
LINE
  8
ITEM_50
 10
159.3417405988701
 20
165.7425397792583
 30
0.0
 11
159.3417405988701
 21
163.9425397792583
 31
0.0
  0
LINE
  8
ITEM_50
 10
236.3417405988701
 20
134.5425397792583
 30
0.0
 11
218.3417405988702
 21
134.5425397792583
 31
0.0
  0
LINE
  8
ITEM_50
 10
141.3417405988701
 20
163.9425397792583
 30
0.0
 11
159.3417405988701
 21
163.9425397792583
 31
0.0
  0
LINE
  8
ITEM_50
 10
141.3417405988701
 20
165.7425397792583
 30
0.0
 11
236.3417405988701
 21
165.7425397792583
 31
0.0
  0
LINE
  8
ITEM_50
 10
141.3417405988701
 20
132.7425397792583
 30
0.0
 11
141.3417405988701
 21
150.7425397792583
 31
0.0
  0
LINE
  8
ITEM_50
 10
236.3417405988701
 20
132.7425397792583
 30
0.0
 11
141.3417405988701
 21
132.7425397792583
 31
0.0
  0
LINE
  8
ITEM_50
 10
236.3417405988701
 20
165.7425397792583
 30
0.0
 11
236.3417405988701
 21
155.7425397792581
 31
0.0
  0
LINE
  8
ITEM_50
 10
141.3417405988701
 20
213.2820826507039
 30
0.0
 11
236.3417405988702
 21
213.2820826507039
 31
0.0
  0
LINE
  8
ITEM_50
 10
159.3417405988701
 20
246.2820826507039
 30
0.0
 11
141.3417405988701
 21
213.2820826507039
 31
0.0
  0
LINE
  8
ITEM_50
 10
218.3417405988701
 20
246.2820826507039
 30
0.0
 11
159.3417405988701
 21
246.2820826507039
 31
0.0
  0
LINE
  8
ITEM_50
 10
236.3417405988702
 20
213.2820826507039
 30
0.0
 11
218.3417405988701
 21
246.2820826507039
 31
0.0
  0
ENDSEC
  0
EOF
